ISO-10303-21;
HEADER;
FILE_DESCRIPTION (( 'STEP AP214' ),
    '1' );
FILE_NAME ('90001277 (200mm dia x 45 deg).STEP',
    '2025-03-06T13:26:33',
    ( '' ),
    ( '' ),
    'SwSTEP 2.0',
    'SolidWorks 2024',
    '' );
FILE_SCHEMA (( 'AUTOMOTIVE_DESIGN' ));
ENDSEC;

DATA;
#1 = ORIENTED_EDGE ( 'NONE', *, *, #264, .F. ) ;
#2 = PRODUCT ( '90001277 (200mm dia x 45 deg)', '90001277 (200mm dia x 45 deg)', '', ( #113 ) ) ;
#3 = ORIENTED_EDGE ( 'NONE', *, *, #225, .T. ) ;
#4 = VECTOR ( 'NONE', #245, 1000.000000000000000 ) ;
#5 = DIRECTION ( 'NONE',  ( 0.000000000000000000, 0.000000000000000000, 1.000000000000000000 ) ) ;
#6 = DIRECTION ( 'NONE',  ( -1.859842476768027821E-30, 1.000000000000000000, 0.000000000000000000 ) ) ;
#7 = EDGE_CURVE ( 'NONE', #134, #68, #33, .T. ) ;
#8 = CYLINDRICAL_SURFACE ( 'NONE', #117, 116.0000000000000000 ) ;
#9 = DIRECTION ( 'NONE',  ( -1.859842476768027821E-30, 1.000000000000000000, 0.000000000000000000 ) ) ;
#10 = CARTESIAN_POINT ( 'NONE',  ( 145.6913421348996565, 110.3086578651024610, 1.224646799147353217E-14 ) ) ;
#11 = ADVANCED_FACE ( 'NONE', ( #200 ), #53, .F. ) ;
#12 = LINE ( 'NONE', #103, #282 ) ;
#13 = FACE_OUTER_BOUND ( 'NONE', #48, .T. ) ;
#14 = CIRCLE ( 'NONE', #234, 100.0000000000000000 ) ;
#15 = CARTESIAN_POINT ( 'NONE',  ( 100.0000000000000000, 64.61731573020361452, 1.224646799147353217E-14 ) ) ;
#16 = CARTESIAN_POINT ( 'NONE',  ( 100.0000000000000000, 1.859842476768027891E-28, 1.224646799147353217E-14 ) ) ;
#17 = VERTEX_POINT ( 'NONE', #276 ) ;
#18 = CARTESIAN_POINT ( 'NONE',  ( 157.0050506338843093, 98.99494936611758078, 1.420590287010929612E-14 ) ) ;
#19 = CIRCLE ( 'NONE', #219, 100.0000000000000000 ) ;
#20 = CARTESIAN_POINT ( 'NONE',  ( 74.98066401624548405, 181.0193359837578271, 0.000000000000000000 ) ) ;
#21 = EDGE_CURVE ( 'NONE', #184, #228, #170, .T. ) ;
#22 = CARTESIAN_POINT ( 'NONE',  ( -100.0000000000000284, 147.4600282048236295, 0.000000000000000000 ) ) ;
#23 = ORIENTED_EDGE ( 'NONE', *, *, #260, .F. ) ;
#24 = FACE_BOUND ( 'NONE', #278, .T. ) ;
#25 = ORIENTED_EDGE ( 'NONE', *, *, #143, .T. ) ;
#26 = PRODUCT_DEFINITION_CONTEXT ( 'detailed design', #216, 'design' ) ;
#27 = DIRECTION ( 'NONE',  ( -1.000000000000000000, -1.859842476768027821E-30, 0.000000000000000000 ) ) ;
#28 = ORIENTED_EDGE ( 'NONE', *, *, #193, .F. ) ;
#29 = AXIS2_PLACEMENT_3D ( 'NONE', #145, #190, #84 ) ;
#30 = VERTEX_POINT ( 'NONE', #78 ) ;
#31 = CARTESIAN_POINT ( 'NONE',  ( 74.98066401624548405, 181.0193359837578271, 0.000000000000000000 ) ) ;
#32 = EDGE_CURVE ( 'NONE', #30, #184, #281, .T. ) ;
#33 =( BOUNDED_CURVE ( )  B_SPLINE_CURVE ( 3, ( #159, #158, #254, #100 ),
 .UNSPECIFIED., .F., .T. ) 
 B_SPLINE_CURVE_WITH_KNOTS ( ( 4, 4 ),
 ( 3.141592653589793116, 6.283185307179586232 ),
 .UNSPECIFIED. ) 
 CURVE ( )  GEOMETRIC_REPRESENTATION_ITEM ( )  RATIONAL_B_SPLINE_CURVE ( ( 1.000000000000000000, 0.3333333333333333703, 0.3333333333333333703, 1.000000000000000000 ) ) 
 REPRESENTATION_ITEM ( '' )  );
#34 = CARTESIAN_POINT ( 'NONE',  ( 7.207326498325603126, -50.80277476943859227, 1.420590287010929612E-14 ) ) ;
#35 = CIRCLE ( 'NONE', #268, 116.0000000000000000 ) ;
#36 = EDGE_CURVE ( 'NONE', #280, #95, #102, .T. ) ;
#37 = FACE_OUTER_BOUND ( 'NONE', #252, .T. ) ;
#38 = DIRECTION ( 'NONE',  ( 0.000000000000000000, 0.000000000000000000, 1.000000000000000000 ) ) ;
#39 = LINE ( 'NONE', #211, #105 ) ;
#40 = DIRECTION ( 'NONE',  ( 0.7071067811865535679, 0.7071067811865415775, 0.000000000000000000 ) ) ;
#41 = MECHANICAL_DESIGN_GEOMETRIC_PRESENTATION_REPRESENTATION (  '', ( #148 ), #188 ) ;
#42 = CARTESIAN_POINT ( 'NONE',  ( 100.0000000000000000, 64.61731573020361452, 1.224646799147353217E-14 ) ) ;
#43 = ORIENTED_EDGE ( 'NONE', *, *, #98, .F. ) ;
#44 = CYLINDRICAL_SURFACE ( 'NONE', #213, 116.0000000000000142 ) ;
#45 = ADVANCED_FACE ( 'NONE', ( #24, #112 ), #299, .F. ) ;
#46 = AXIS2_PLACEMENT_3D ( 'NONE', #223, #116, #5 ) ;
#47 = PRODUCT_DEFINITION ( 'UNKNOWN', '', #247, #26 ) ;
#48 = EDGE_LOOP ( 'NONE', ( #51, #185, #119, #204 ) ) ;
#49 = ORIENTED_EDGE ( 'NONE', *, *, #36, .T. ) ;
#50 =( NAMED_UNIT ( * ) SI_UNIT ( $, .STERADIAN. ) SOLID_ANGLE_UNIT ( ) );
#51 = ORIENTED_EDGE ( 'NONE', *, *, #155, .F. ) ;
#52 = AXIS2_PLACEMENT_3D ( 'NONE', #229, #6, #27 ) ;
#53 = CYLINDRICAL_SURFACE ( 'NONE', #52, 100.0000000000000000 ) ;
#54 = ADVANCED_FACE ( 'NONE', ( #37 ), #167, .T. ) ;
#55 = UNCERTAINTY_MEASURE_WITH_UNIT (LENGTH_MEASURE( 1.000000000000000082E-05 ), #295, 'distance_accuracy_value', 'NONE');
#56 = ORIENTED_EDGE ( 'NONE', *, *, #36, .F. ) ;
#57 = CIRCLE ( 'NONE', #92, 100.0000000000000000 ) ;
#58 = CARTESIAN_POINT ( 'NONE',  ( -116.0000000000000142, 154.0874452027932193, 0.000000000000000000 ) ) ;
#59 = DIRECTION ( 'NONE',  ( -0.7071067811865417996, 0.7071067811865534569, 0.000000000000000000 ) ) ;
#60 = CARTESIAN_POINT ( 'NONE',  ( 0.000000000000000000, 0.000000000000000000, 0.000000000000000000 ) ) ;
#61 = CARTESIAN_POINT ( 'NONE',  ( -100.0000000000000000, 0.000000000000000000, 0.000000000000000000 ) ) ;
#62 = CYLINDRICAL_SURFACE ( 'NONE', #139, 100.0000000000000142 ) ;
#63 =( NAMED_UNIT ( * ) PLANE_ANGLE_UNIT ( ) SI_UNIT ( $, .RADIAN. ) );
#64 = SURFACE_SIDE_STYLE ('',( #169 ) ) ;
#65 =( BOUNDED_CURVE ( )  B_SPLINE_CURVE ( 3, ( #42, #290, #129, #277 ),
 .UNSPECIFIED., .F., .T. ) 
 B_SPLINE_CURVE_WITH_KNOTS ( ( 4, 4 ),
 ( 3.141592653589793116, 6.283185307179586232 ),
 .UNSPECIFIED. ) 
 CURVE ( )  GEOMETRIC_REPRESENTATION_ITEM ( )  RATIONAL_B_SPLINE_CURVE ( ( 1.000000000000000000, 0.3333333333333333703, 0.3333333333333333703, 1.000000000000000000 ) ) 
 REPRESENTATION_ITEM ( '' )  );
#66 = CARTESIAN_POINT ( 'NONE',  ( -74.81706011931322564, 31.22161184820162916, 0.000000000000000000 ) ) ;
#67 = CARTESIAN_POINT ( 'NONE',  ( 0.000000000000000000, 0.000000000000000000, 0.000000000000000000 ) ) ;
#68 = VERTEX_POINT ( 'NONE', #166 ) ;
#69 = DIRECTION ( 'NONE',  ( -1.000000000000000000, -1.859842476768028171E-30, 0.000000000000000000 ) ) ;
#70 = ORIENTED_EDGE ( 'NONE', *, *, #86, .F. ) ;
#71 = ORIENTED_EDGE ( 'NONE', *, *, #258, .T. ) ;
#72 = APPLICATION_PROTOCOL_DEFINITION ( 'draft international standard', 'automotive_design', 1998, #163 ) ;
#73 = EDGE_LOOP ( 'NONE', ( #76, #43 ) ) ;
#74 = CARTESIAN_POINT ( 'NONE',  ( 0.000000000000000000, 0.000000000000000000, 0.000000000000000000 ) ) ;
#75 = VERTEX_POINT ( 'NONE', #121 ) ;
#76 = ORIENTED_EDGE ( 'NONE', *, *, #214, .F. ) ;
#77 = ORIENTED_EDGE ( 'NONE', *, *, #258, .F. ) ;
#78 = CARTESIAN_POINT ( 'NONE',  ( 100.0000000000000000, 64.61731573020361452, 1.224646799147353217E-14 ) ) ;
#79 = AXIS2_PLACEMENT_3D ( 'NONE', #161, #142, #256 ) ;
#80 = CARTESIAN_POINT ( 'NONE',  ( -64.50721881707947603, 41.53145315043521890, 0.000000000000000000 ) ) ;
#81 = DIRECTION ( 'NONE',  ( 0.7071067811865535679, 0.7071067811865415775, -0.000000000000000000 ) ) ;
#82 = DIRECTION ( 'NONE',  ( -1.859842476768027821E-30, 1.000000000000000000, 0.000000000000000000 ) ) ;
#83 = AXIS2_PLACEMENT_3D ( 'NONE', #31, #81, #38 ) ;
#84 = DIRECTION ( 'NONE',  ( 0.000000000000000000, 0.000000000000000000, 1.000000000000000000 ) ) ;
#85 = CARTESIAN_POINT ( 'NONE',  ( -100.0000000000000000, 147.4600282048236295, 200.0000000000000000 ) ) ;
#86 = EDGE_CURVE ( 'NONE', #17, #206, #19, .T. ) ;
#87 = DIRECTION ( 'NONE',  ( 0.7071067811865534569, 0.7071067811865416886, 0.000000000000000000 ) ) ;
#88 = DIRECTION ( 'NONE',  ( -0.7071067811865534569, -0.7071067811865415775, -0.000000000000000000 ) ) ;
#89 = EDGE_LOOP ( 'NONE', ( #1, #198, #250, #272 ) ) ;
#90 = FACE_OUTER_BOUND ( 'NONE', #138, .T. ) ;
#91 = ORIENTED_EDGE ( 'NONE', *, *, #7, .F. ) ;
#92 = AXIS2_PLACEMENT_3D ( 'NONE', #106, #88, #194 ) ;
#93 = AXIS2_PLACEMENT_3D ( 'NONE', #74, #253, #274 ) ;
#94 = CARTESIAN_POINT ( 'NONE',  ( 0.000000000000000000, 0.000000000000000000, 0.000000000000000000 ) ) ;
#95 = VERTEX_POINT ( 'NONE', #208 ) ;
#96 = ORIENTED_EDGE ( 'NONE', *, *, #155, .T. ) ;
#97 = VECTOR ( 'NONE', #259, 1000.000000000000000 ) ;
#98 = EDGE_CURVE ( 'NONE', #114, #221, #202, .T. ) ;
#99 = ORIENTED_EDGE ( 'NONE', *, *, #298, .F. ) ;
#100 = CARTESIAN_POINT ( 'NONE',  ( -116.0000000000000142, 154.0874452027932193, 0.000000000000000000 ) ) ;
#101 = DIRECTION ( 'NONE',  ( 0.000000000000000000, 0.000000000000000000, 1.000000000000000000 ) ) ;
#102 = CIRCLE ( 'NONE', #203, 116.0000000000000000 ) ;
#103 = CARTESIAN_POINT ( 'NONE',  ( -135.2178969357336484, 112.2421312690905637, 0.000000000000000000 ) ) ;
#104 = FACE_BOUND ( 'NONE', #279, .T. ) ;
#105 = VECTOR ( 'NONE', #147, 1000.000000000000000 ) ;
#106 = CARTESIAN_POINT ( 'NONE',  ( 74.98066401624548405, 181.0193359837578271, 0.000000000000000000 ) ) ;
#107 = CYLINDRICAL_SURFACE ( 'NONE', #180, 100.0000000000000000 ) ;
#108 = PRESENTATION_LAYER_ASSIGNMENT (  '', '', ( #148 ) ) ;
#109 = ORIENTED_EDGE ( 'NONE', *, *, #186, .T. ) ;
#110 = ORIENTED_EDGE ( 'NONE', *, *, #260, .T. ) ;
#111 = DIRECTION ( 'NONE',  ( 0.000000000000000000, 0.000000000000000000, 1.000000000000000000 ) ) ;
#112 = FACE_OUTER_BOUND ( 'NONE', #73, .T. ) ;
#113 = PRODUCT_CONTEXT ( 'NONE', #163, 'mechanical' ) ;
#114 = VERTEX_POINT ( 'NONE', #207 ) ;
#115 = CARTESIAN_POINT ( 'NONE',  ( 6.203459301574690166, -29.17922496822013301, 1.224646799147353217E-14 ) ) ;
#116 = DIRECTION ( 'NONE',  ( -0.7071067811865534569, -0.7071067811865415775, -0.000000000000000000 ) ) ;
#117 = AXIS2_PLACEMENT_3D ( 'NONE', #60, #233, #289 ) ;
#118 =( LENGTH_UNIT ( ) NAMED_UNIT ( * ) SI_UNIT ( .MILLI., .METRE. ) );
#119 = ORIENTED_EDGE ( 'NONE', *, *, #193, .T. ) ;
#120 = CARTESIAN_POINT ( 'NONE',  ( 0.000000000000000000, 0.000000000000000000, 0.000000000000000000 ) ) ;
#121 = CARTESIAN_POINT ( 'NONE',  ( -100.0000000000000284, 147.4600282048236295, 0.000000000000000000 ) ) ;
#122 = AXIS2_PLACEMENT_3D ( 'NONE', #120, #189, #257 ) ;
#123 = PLANE ( 'NONE',  #83 ) ;
#124 = ADVANCED_FACE ( 'NONE', ( #13 ), #8, .T. ) ;
#125 = CARTESIAN_POINT ( 'NONE',  ( 116.0000000000000284, 57.98989873223403180, -232.0000000000000568 ) ) ;
#126 = EDGE_CURVE ( 'NONE', #68, #134, #177, .T. ) ;
#127 = COLOUR_RGB ( '',0.7921568627450980005, 0.8196078431372548767, 0.9333333333333333481 ) ;
#128 = CARTESIAN_POINT ( 'NONE',  ( 100.0000000000000000, 64.61731573020362873, 200.0000000000000000 ) ) ;
#129 = CARTESIAN_POINT ( 'NONE',  ( -100.0000000000000000, 147.4600282048236295, -200.0000000000000000 ) ) ;
#130 =( NAMED_UNIT ( * ) SI_UNIT ( $, .STERADIAN. ) SOLID_ANGLE_UNIT ( ) );
#131 = ORIENTED_EDGE ( 'NONE', *, *, #225, .F. ) ;
#132 = DIRECTION ( 'NONE',  ( -0.000000000000000000, -1.000000000000000000, -0.000000000000000000 ) ) ;
#133 = ADVANCED_FACE ( 'NONE', ( #104, #285 ), #123, .T. ) ;
#134 = VERTEX_POINT ( 'NONE', #232 ) ;
#135 = ORIENTED_EDGE ( 'NONE', *, *, #146, .F. ) ;
#136 = ORIENTED_EDGE ( 'NONE', *, *, #21, .T. ) ;
#137 = DIRECTION ( 'NONE',  ( 0.7071067811865534569, 0.7071067811865415775, 0.000000000000000000 ) ) ;
#138 = EDGE_LOOP ( 'NONE', ( #267, #96, #296, #28 ) ) ;
#139 = AXIS2_PLACEMENT_3D ( 'NONE', #237, #87, #222 ) ;
#140 = AXIS2_PLACEMENT_3D ( 'NONE', #67, #175, #69 ) ;
#141 = DIRECTION ( 'NONE',  ( 0.000000000000000000, -0.000000000000000000, 1.000000000000000000 ) ) ;
#142 = DIRECTION ( 'NONE',  ( 0.7071067811865535679, 0.7071067811865415775, 0.000000000000000000 ) ) ;
#143 = EDGE_CURVE ( 'NONE', #68, #95, #39, .T. ) ;
#144 = LINE ( 'NONE', #34, #97 ) ;
#145 = CARTESIAN_POINT ( 'NONE',  ( 0.000000000000000000, 0.000000000000000000, 0.000000000000000000 ) ) ;
#146 = EDGE_CURVE ( 'NONE', #134, #280, #144, .T. ) ;
#147 = DIRECTION ( 'NONE',  ( 0.7071067811865535679, 0.7071067811865415775, 0.000000000000000000 ) ) ;
#148 = STYLED_ITEM ( 'NONE', ( #265 ), #275 ) ;
#149 = FILL_AREA_STYLE ('',( #266 ) ) ;
#150 = CARTESIAN_POINT ( 'NONE',  ( 0.000000000000000000, 0.000000000000000000, 0.000000000000000000 ) ) ;
#151 = DIRECTION ( 'NONE',  ( -1.859842476768027821E-30, 1.000000000000000000, 0.000000000000000000 ) ) ;
#152 = ORIENTED_EDGE ( 'NONE', *, *, #32, .T. ) ;
#153 = ORIENTED_EDGE ( 'NONE', *, *, #264, .T. ) ;
#154 = DIRECTION ( 'NONE',  ( 0.000000000000000000, 1.000000000000000000, 0.000000000000000000 ) ) ;
#155 = EDGE_CURVE ( 'NONE', #114, #134, #210, .T. ) ;
#156 = APPLICATION_PROTOCOL_DEFINITION ( 'draft international standard', 'automotive_design', 1998, #216 ) ;
#157 = VECTOR ( 'NONE', #215, 1000.000000000000000 ) ;
#158 = CARTESIAN_POINT ( 'NONE',  ( 116.0000000000000711, 57.98989873223401048, 231.9999999999999716 ) ) ;
#159 = CARTESIAN_POINT ( 'NONE',  ( 116.0000000000000426, 57.98989873223399627, 1.420590287010929612E-14 ) ) ;
#160 = ORIENTED_EDGE ( 'NONE', *, *, #146, .T. ) ;
#161 = CARTESIAN_POINT ( 'NONE',  ( -74.81706011931322564, 31.22161184820162916, 0.000000000000000000 ) ) ;
#162 = CIRCLE ( 'NONE', #29, 116.0000000000000000 ) ;
#163 = APPLICATION_CONTEXT ( 'automotive_design' ) ;
#164 = DIRECTION ( 'NONE',  ( 0.7071067811865534569, 0.7071067811865416886, 0.000000000000000000 ) ) ;
#165 = LINE ( 'NONE', #286, #297 ) ;
#166 = CARTESIAN_POINT ( 'NONE',  ( -116.0000000000000142, 154.0874452027932193, 0.000000000000000000 ) ) ;
#167 = CYLINDRICAL_SURFACE ( 'NONE', #79, 116.0000000000000142 ) ;
#168 = LINE ( 'NONE', #16, #157 ) ;
#169 = SURFACE_STYLE_FILL_AREA ( #149 ) ;
#170 = CIRCLE ( 'NONE', #46, 100.0000000000000000 ) ;
#171 = CARTESIAN_POINT ( 'NONE',  ( -116.0000000000000000, 0.000000000000000000, 0.000000000000000000 ) ) ;
#172 = ORIENTED_EDGE ( 'NONE', *, *, #293, .F. ) ;
#173 = DIRECTION ( 'NONE',  ( 0.000000000000000000, 0.000000000000000000, 1.000000000000000000 ) ) ;
#174 = EDGE_LOOP ( 'NONE', ( #135, #226, #25, #56 ) ) ;
#175 = DIRECTION ( 'NONE',  ( -1.859842476768027821E-30, 1.000000000000000000, 0.000000000000000000 ) ) ;
#176 = ORIENTED_EDGE ( 'NONE', *, *, #143, .F. ) ;
#177 =( BOUNDED_CURVE ( )  B_SPLINE_CURVE ( 3, ( #58, #187, #125, #231 ),
 .UNSPECIFIED., .F., .T. ) 
 B_SPLINE_CURVE_WITH_KNOTS ( ( 4, 4 ),
 ( 0.000000000000000000, 3.141592653589793116 ),
 .UNSPECIFIED. ) 
 CURVE ( )  GEOMETRIC_REPRESENTATION_ITEM ( )  RATIONAL_B_SPLINE_CURVE ( ( 1.000000000000000000, 0.3333333333333333703, 0.3333333333333333703, 1.000000000000000000 ) ) 
 REPRESENTATION_ITEM ( '' )  );
#178 =( NAMED_UNIT ( * ) PLANE_ANGLE_UNIT ( ) SI_UNIT ( $, .RADIAN. ) );
#179 = ORIENTED_EDGE ( 'NONE', *, *, #32, .F. ) ;
#180 = AXIS2_PLACEMENT_3D ( 'NONE', #196, #151, #292 ) ;
#181 = ADVANCED_FACE ( 'NONE', ( #191 ), #283, .F. ) ;
#182 = EDGE_LOOP ( 'NONE', ( #99, #152, #23, #246 ) ) ;
#183 = UNCERTAINTY_MEASURE_WITH_UNIT (LENGTH_MEASURE( 1.000000000000000082E-05 ), #118, 'distance_accuracy_value', 'NONE');
#184 = VERTEX_POINT ( 'NONE', #10 ) ;
#185 = ORIENTED_EDGE ( 'NONE', *, *, #98, .T. ) ;
#186 = EDGE_CURVE ( 'NONE', #75, #228, #12, .T. ) ;
#187 = CARTESIAN_POINT ( 'NONE',  ( -116.0000000000000284, 154.0874452027931909, -231.9999999999999716 ) ) ;
#188 =( GEOMETRIC_REPRESENTATION_CONTEXT ( 3 ) GLOBAL_UNCERTAINTY_ASSIGNED_CONTEXT ( ( #55 ) ) GLOBAL_UNIT_ASSIGNED_CONTEXT ( ( #295, #63, #130 ) ) REPRESENTATION_CONTEXT ( 'NONE', 'WORKASPACE' ) );
#189 = DIRECTION ( 'NONE',  ( 0.000000000000000000, 1.000000000000000000, 0.000000000000000000 ) ) ;
#190 = DIRECTION ( 'NONE',  ( 0.000000000000000000, 1.000000000000000000, 0.000000000000000000 ) ) ;
#191 = FACE_OUTER_BOUND ( 'NONE', #182, .T. ) ;
#192 = FACE_OUTER_BOUND ( 'NONE', #227, .T. ) ;
#193 = EDGE_CURVE ( 'NONE', #221, #68, #165, .T. ) ;
#194 = DIRECTION ( 'NONE',  ( 0.000000000000000000, 0.000000000000000000, 1.000000000000000000 ) ) ;
#195 = VECTOR ( 'NONE', #9, 1000.000000000000000 ) ;
#196 = CARTESIAN_POINT ( 'NONE',  ( 0.000000000000000000, 0.000000000000000000, 0.000000000000000000 ) ) ;
#197 = DIRECTION ( 'NONE',  ( -0.7071067811865414665, 0.7071067811865535679, 0.000000000000000000 ) ) ;
#198 = ORIENTED_EDGE ( 'NONE', *, *, #86, .T. ) ;
#199 = DIRECTION ( 'NONE',  ( 0.7071067811865534569, 0.7071067811865416886, 0.000000000000000000 ) ) ;
#200 = FACE_OUTER_BOUND ( 'NONE', #89, .T. ) ;
#201 = CARTESIAN_POINT ( 'NONE',  ( 74.98066401624548405, 181.0193359837578271, 0.000000000000000000 ) ) ;
#202 = CIRCLE ( 'NONE', #122, 116.0000000000000000 ) ;
#203 = AXIS2_PLACEMENT_3D ( 'NONE', #201, #137, #249 ) ;
#204 = ORIENTED_EDGE ( 'NONE', *, *, #126, .T. ) ;
#205 = PRODUCT_RELATED_PRODUCT_CATEGORY ( 'part', '', ( #2 ) ) ;
#206 = VERTEX_POINT ( 'NONE', #61 ) ;
#207 = CARTESIAN_POINT ( 'NONE',  ( 116.0000000000000000, 0.000000000000000000, 1.420590287010929612E-14 ) ) ;
#208 = CARTESIAN_POINT ( 'NONE',  ( -7.043722601393353600, 263.0437226013979739, 0.000000000000000000 ) ) ;
#209 = VECTOR ( 'NONE', #199, 1000.000000000000000 ) ;
#210 = LINE ( 'NONE', #288, #195 ) ;
#211 = CARTESIAN_POINT ( 'NONE',  ( -156.8414467369520366, 113.2459984658418506, 0.000000000000000000 ) ) ;
#212 = CARTESIAN_POINT ( 'NONE',  ( 0.000000000000000000, 0.000000000000000000, 0.000000000000000000 ) ) ;
#213 = AXIS2_PLACEMENT_3D ( 'NONE', #66, #40, #197 ) ;
#214 = EDGE_CURVE ( 'NONE', #221, #114, #162, .T. ) ;
#215 = DIRECTION ( 'NONE',  ( -1.859842476768027821E-30, 1.000000000000000000, 0.000000000000000000 ) ) ;
#216 = APPLICATION_CONTEXT ( 'automotive_design' ) ;
#217 = ADVANCED_FACE ( 'NONE', ( #263 ), #62, .F. ) ;
#218 = ORIENTED_EDGE ( 'NONE', *, *, #298, .T. ) ;
#219 = AXIS2_PLACEMENT_3D ( 'NONE', #212, #236, #101 ) ;
#220 = DIRECTION ( 'NONE',  ( 0.7071067811865534569, 0.7071067811865415775, 0.000000000000000000 ) ) ;
#221 = VERTEX_POINT ( 'NONE', #171 ) ;
#222 = DIRECTION ( 'NONE',  ( -0.7071067811865417996, 0.7071067811865534569, 0.000000000000000000 ) ) ;
#223 = CARTESIAN_POINT ( 'NONE',  ( 74.98066401624548405, 181.0193359837578271, 0.000000000000000000 ) ) ;
#224 = PRODUCT_DEFINITION_SHAPE ( 'NONE', 'NONE',  #47 ) ;
#225 = EDGE_CURVE ( 'NONE', #206, #17, #14, .T. ) ;
#226 = ORIENTED_EDGE ( 'NONE', *, *, #126, .F. ) ;
#227 = EDGE_LOOP ( 'NONE', ( #3, #153, #218, #242 ) ) ;
#228 = VERTEX_POINT ( 'NONE', #248 ) ;
#229 = CARTESIAN_POINT ( 'NONE',  ( 0.000000000000000000, 0.000000000000000000, 0.000000000000000000 ) ) ;
#230 = ADVANCED_BREP_SHAPE_REPRESENTATION ( '90001277 (200mm dia x 45 deg)', ( #275, #93 ), #240 ) ;
#231 = CARTESIAN_POINT ( 'NONE',  ( 116.0000000000000426, 57.98989873223399627, 1.420590287010929612E-14 ) ) ;
#232 = CARTESIAN_POINT ( 'NONE',  ( 116.0000000000000426, 57.98989873223399627, 1.420590287010929612E-14 ) ) ;
#233 = DIRECTION ( 'NONE',  ( -1.859842476768027821E-30, 1.000000000000000000, 0.000000000000000000 ) ) ;
#234 = AXIS2_PLACEMENT_3D ( 'NONE', #150, #132, #111 ) ;
#235 = EDGE_CURVE ( 'NONE', #206, #75, #241, .T. ) ;
#236 = DIRECTION ( 'NONE',  ( -0.000000000000000000, -1.000000000000000000, -0.000000000000000000 ) ) ;
#237 = CARTESIAN_POINT ( 'NONE',  ( -64.50721881707947603, 41.53145315043521890, 0.000000000000000000 ) ) ;
#238 = ADVANCED_FACE ( 'NONE', ( #269 ), #44, .T. ) ;
#239 = AXIS2_PLACEMENT_3D ( 'NONE', #80, #164, #59 ) ;
#240 =( GEOMETRIC_REPRESENTATION_CONTEXT ( 3 ) GLOBAL_UNCERTAINTY_ASSIGNED_CONTEXT ( ( #183 ) ) GLOBAL_UNIT_ASSIGNED_CONTEXT ( ( #118, #178, #50 ) ) REPRESENTATION_CONTEXT ( 'NONE', 'WORKASPACE' ) );
#241 = LINE ( 'NONE', #273, #4 ) ;
#242 = ORIENTED_EDGE ( 'NONE', *, *, #235, .F. ) ;
#243 =( BOUNDED_CURVE ( )  B_SPLINE_CURVE ( 3, ( #22, #85, #128, #15 ),
 .UNSPECIFIED., .F., .T. ) 
 B_SPLINE_CURVE_WITH_KNOTS ( ( 4, 4 ),
 ( 0.000000000000000000, 3.141592653589793116 ),
 .UNSPECIFIED. ) 
 CURVE ( )  GEOMETRIC_REPRESENTATION_ITEM ( )  RATIONAL_B_SPLINE_CURVE ( ( 1.000000000000000000, 0.3333333333333333703, 0.3333333333333333703, 1.000000000000000000 ) ) 
 REPRESENTATION_ITEM ( '' )  );
#244 = SURFACE_STYLE_USAGE ( .BOTH. , #64 ) ;
#245 = DIRECTION ( 'NONE',  ( -1.859842476768027821E-30, 1.000000000000000000, 0.000000000000000000 ) ) ;
#246 = ORIENTED_EDGE ( 'NONE', *, *, #186, .F. ) ;
#247 = PRODUCT_DEFINITION_FORMATION_WITH_SPECIFIED_SOURCE ( 'ANY', '', #2, .NOT_KNOWN. ) ;
#248 = CARTESIAN_POINT ( 'NONE',  ( 4.269985897591283219, 251.7300141024131790, 0.000000000000000000 ) ) ;
#249 = DIRECTION ( 'NONE',  ( 0.000000000000000000, 0.000000000000000000, 1.000000000000000000 ) ) ;
#250 = ORIENTED_EDGE ( 'NONE', *, *, #235, .T. ) ;
#251 = SHAPE_DEFINITION_REPRESENTATION ( #224, #230 ) ;
#252 = EDGE_LOOP ( 'NONE', ( #91, #160, #77, #176 ) ) ;
#253 = DIRECTION ( 'NONE',  ( 0.000000000000000000, 0.000000000000000000, 1.000000000000000000 ) ) ;
#254 = CARTESIAN_POINT ( 'NONE',  ( -116.0000000000000284, 154.0874452027931909, 231.9999999999999716 ) ) ;
#255 = EDGE_LOOP ( 'NONE', ( #179, #172, #109, #294 ) ) ;
#256 = DIRECTION ( 'NONE',  ( -0.7071067811865414665, 0.7071067811865535679, 0.000000000000000000 ) ) ;
#257 = DIRECTION ( 'NONE',  ( 0.000000000000000000, 0.000000000000000000, 1.000000000000000000 ) ) ;
#258 = EDGE_CURVE ( 'NONE', #95, #280, #35, .T. ) ;
#259 = DIRECTION ( 'NONE',  ( 0.7071067811865535679, 0.7071067811865415775, 0.000000000000000000 ) ) ;
#260 = EDGE_CURVE ( 'NONE', #228, #184, #57, .T. ) ;
#261 = DIRECTION ( 'NONE',  ( 0.7071067811865534569, 0.7071067811865416886, 0.000000000000000000 ) ) ;
#262 = AXIS2_PLACEMENT_3D ( 'NONE', #94, #154, #141 ) ;
#263 = FACE_OUTER_BOUND ( 'NONE', #255, .T. ) ;
#264 = EDGE_CURVE ( 'NONE', #17, #30, #168, .T. ) ;
#265 = PRESENTATION_STYLE_ASSIGNMENT (( #244 ) ) ;
#266 = FILL_AREA_STYLE_COLOUR ( '', #127 ) ;
#267 = ORIENTED_EDGE ( 'NONE', *, *, #214, .T. ) ;
#268 = AXIS2_PLACEMENT_3D ( 'NONE', #20, #220, #173 ) ;
#269 = FACE_OUTER_BOUND ( 'NONE', #174, .T. ) ;
#270 = EDGE_LOOP ( 'NONE', ( #71, #49 ) ) ;
#271 = CYLINDRICAL_SURFACE ( 'NONE', #140, 116.0000000000000000 ) ;
#272 = ORIENTED_EDGE ( 'NONE', *, *, #293, .T. ) ;
#273 = CARTESIAN_POINT ( 'NONE',  ( -100.0000000000000000, -1.859842476768027891E-28, 0.000000000000000000 ) ) ;
#274 = DIRECTION ( 'NONE',  ( 1.000000000000000000, 0.000000000000000000, 0.000000000000000000 ) ) ;
#275 = MANIFOLD_SOLID_BREP ( 'Sweep1', #291 ) ;
#276 = CARTESIAN_POINT ( 'NONE',  ( 100.0000000000000000, 0.000000000000000000, 1.224646799147353217E-14 ) ) ;
#277 = CARTESIAN_POINT ( 'NONE',  ( -100.0000000000000284, 147.4600282048236295, 0.000000000000000000 ) ) ;
#278 = EDGE_LOOP ( 'NONE', ( #131, #70 ) ) ;
#279 = EDGE_LOOP ( 'NONE', ( #110, #136 ) ) ;
#280 = VERTEX_POINT ( 'NONE', #18 ) ;
#281 = LINE ( 'NONE', #115, #209 ) ;
#282 = VECTOR ( 'NONE', #261, 1000.000000000000000 ) ;
#283 = CYLINDRICAL_SURFACE ( 'NONE', #239, 100.0000000000000142 ) ;
#284 = ADVANCED_FACE ( 'NONE', ( #192 ), #107, .F. ) ;
#285 = FACE_OUTER_BOUND ( 'NONE', #270, .T. ) ;
#286 = CARTESIAN_POINT ( 'NONE',  ( -116.0000000000000000, -2.157417273050912622E-28, 0.000000000000000000 ) ) ;
#287 = ADVANCED_FACE ( 'NONE', ( #90 ), #271, .T. ) ;
#288 = CARTESIAN_POINT ( 'NONE',  ( 116.0000000000000000, 2.157417273050912622E-28, 1.420590287010929612E-14 ) ) ;
#289 = DIRECTION ( 'NONE',  ( -1.000000000000000000, -1.859842476768028171E-30, 0.000000000000000000 ) ) ;
#290 = CARTESIAN_POINT ( 'NONE',  ( 100.0000000000000426, 64.61731573020360031, -200.0000000000000000 ) ) ;
#291 = CLOSED_SHELL ( 'NONE', ( #284, #181, #287, #54, #11, #217, #45, #133, #124, #238 ) ) ;
#292 = DIRECTION ( 'NONE',  ( -1.000000000000000000, -1.859842476768027821E-30, 0.000000000000000000 ) ) ;
#293 = EDGE_CURVE ( 'NONE', #75, #30, #243, .T. ) ;
#294 = ORIENTED_EDGE ( 'NONE', *, *, #21, .F. ) ;
#295 =( LENGTH_UNIT ( ) NAMED_UNIT ( * ) SI_UNIT ( .MILLI., .METRE. ) );
#296 = ORIENTED_EDGE ( 'NONE', *, *, #7, .T. ) ;
#297 = VECTOR ( 'NONE', #82, 1000.000000000000000 ) ;
#298 = EDGE_CURVE ( 'NONE', #30, #75, #65, .T. ) ;
#299 = PLANE ( 'NONE',  #262 ) ;
ENDSEC;
END-ISO-10303-21;
